ISO-10303-21;
HEADER;
FILE_DESCRIPTION (( 'STEP AP203' ),
    '1' );
FILE_NAME ('Q-OZHWP-R2-12.7-405-M.STEP',
    '2020-12-22T09:14:05',
    ( '' ),
    ( '' ),
    'SwSTEP 2.0',
    'SolidWorks 2020',
    '' );
FILE_SCHEMA (( 'CONFIG_CONTROL_DESIGN' ));
ENDSEC;

DATA;
#1 = CARTESIAN_POINT ( 'NONE',  ( -1.614212418857619014, 0.000000000000000000, 0.000000000000000000 ) ) ;
#2 = APPLICATION_PROTOCOL_DEFINITION ( 'international standard', 'config_control_design', 1994, #30 ) ;
#3 = CIRCLE ( 'NONE', #279, 6.349999999999999645 ) ;
#4 = FACE_OUTER_BOUND ( 'NONE', #321, .T. ) ;
#5 = APPROVAL_DATE_TIME ( #111, #100 ) ;
#6 = EDGE_CURVE ( 'NONE', #78, #9, #77, .T. ) ;
#7 = DIRECTION ( 'NONE',  ( 0.000000000000000000, 0.000000000000000000, 1.000000000000000000 ) ) ;
#8 = AXIS2_PLACEMENT_3D ( 'NONE', #283, #208, #257 ) ;
#9 = VERTEX_POINT ( 'NONE', #20 ) ;
#10 =( LENGTH_UNIT ( ) NAMED_UNIT ( * ) SI_UNIT ( .MILLI., .METRE. ) );
#11 = ORIENTED_EDGE ( 'NONE', *, *, #82, .F. ) ;
#12 = ORIENTED_EDGE ( 'NONE', *, *, #131, .F. ) ;
#13 = EDGE_CURVE ( 'NONE', #67, #119, #197, .T. ) ;
#14 = AXIS2_PLACEMENT_3D ( 'NONE', #297, #195, #187 ) ;
#15 = PLANE ( 'NONE',  #144 ) ;
#16 = PRODUCT ( 'Q-OZHWP-R2-12.7-405-M', 'Q-OZHWP-R2-12.7-405-M', '', ( #237 ) ) ;
#17 = EDGE_CURVE ( 'NONE', #92, #76, #193, .T. ) ;
#18 = ORIENTED_EDGE ( 'NONE', *, *, #17, .F. ) ;
#19 = APPROVAL_PERSON_ORGANIZATION ( #317, #100, #138 ) ;
#20 = CARTESIAN_POINT ( 'NONE',  ( -1.500000000000000444, 7.776507174585692163E-16, -6.349999999999999645 ) ) ;
#21 = ADVANCED_FACE ( 'NONE', ( #331 ), #153, .F. ) ;
#22 = CYLINDRICAL_SURFACE ( 'NONE', #105, 6.349999999999999645 ) ;
#23 = DIRECTION ( 'NONE',  ( 0.000000000000000000, 0.000000000000000000, 1.000000000000000000 ) ) ;
#24 = CC_DESIGN_PERSON_AND_ORGANIZATION_ASSIGNMENT ( #256, #204, ( #259 ) ) ;
#25 = CIRCLE ( 'NONE', #93, 6.349999999999999645 ) ;
#26 = CARTESIAN_POINT ( 'NONE',  ( -3.000000000000000000, 6.349999999999999645, 0.000000000000000000 ) ) ;
#27 = APPROVAL_STATUS ( 'not_yet_approved' ) ;
#28 = CYLINDRICAL_SURFACE ( 'NONE', #270, 6.349999999999999645 ) ;
#29 = COORDINATED_UNIVERSAL_TIME_OFFSET ( 8, 0, .AHEAD. ) ;
#30 = APPLICATION_CONTEXT ( 'configuration controlled 3d designs of mechanical parts and assemblies' ) ;
#31 = ADVANCED_FACE ( 'NONE', ( #81, #51 ), #15, .F. ) ;
#32 = DIRECTION ( 'NONE',  ( 1.000000000000000000, 0.000000000000000000, 0.000000000000000000 ) ) ;
#33 = CALENDAR_DATE ( 2020, 22, 12 ) ;
#34 = CARTESIAN_POINT ( 'NONE',  ( -1.614212418857619014, 0.000000000000000000, 6.349999999999999645 ) ) ;
#35 = CALENDAR_DATE ( 2020, 22, 12 ) ;
#36 = ORIENTED_EDGE ( 'NONE', *, *, #264, .F. ) ;
#37 = ORIENTED_EDGE ( 'NONE', *, *, #49, .F. ) ;
#38 = DIRECTION ( 'NONE',  ( 1.000000000000000000, 0.000000000000000000, 0.000000000000000000 ) ) ;
#39 = AXIS2_PLACEMENT_3D ( 'NONE', #221, #299, #70 ) ;
#40 = EDGE_LOOP ( 'NONE', ( #95, #327 ) ) ;
#41 = CARTESIAN_POINT ( 'NONE',  ( 1.500000000000000888, 0.000000000000000000, 6.349999999999999645 ) ) ;
#42 = ORIENTED_EDGE ( 'NONE', *, *, #49, .T. ) ;
#43 = ORIENTED_EDGE ( 'NONE', *, *, #90, .T. ) ;
#44 = AXIS2_PLACEMENT_3D ( 'NONE', #55, #253, #175 ) ;
#45 = CARTESIAN_POINT ( 'NONE',  ( -2.999999999999999556, 0.000000000000000000, 6.349999999999999645 ) ) ;
#46 = LOCAL_TIME ( 17, 14, 5.000000000000000000, #115 ) ;
#47 = PRODUCT_DEFINITION_SHAPE ( 'NONE', 'NONE',  #259 ) ;
#48 = DIRECTION ( 'NONE',  ( -1.000000000000000000, -0.000000000000000000, -0.000000000000000000 ) ) ;
#49 = EDGE_CURVE ( 'NONE', #78, #76, #251, .T. ) ;
#50 = CARTESIAN_POINT ( 'NONE',  ( 0.000000000000000000, 0.000000000000000000, 0.000000000000000000 ) ) ;
#51 = FACE_BOUND ( 'NONE', #40, .T. ) ;
#52 = DIRECTION ( 'NONE',  ( -1.000000000000000000, -0.000000000000000000, -0.000000000000000000 ) ) ;
#53 = AXIS2_PLACEMENT_3D ( 'NONE', #161, #180, #59 ) ;
#54 = ADVANCED_FACE ( 'NONE', ( #227 ), #200, .F. ) ;
#55 = CARTESIAN_POINT ( 'NONE',  ( -1.500000000000000444, 0.000000000000000000, 0.000000000000000000 ) ) ;
#56 = DIRECTION ( 'NONE',  ( 1.000000000000000000, 0.000000000000000000, 0.000000000000000000 ) ) ;
#57 = CC_DESIGN_PERSON_AND_ORGANIZATION_ASSIGNMENT ( #58, #309, ( #157 ) ) ;
#58 = PERSON_AND_ORGANIZATION ( #149, #101 ) ;
#59 = DIRECTION ( 'NONE',  ( 0.000000000000000000, 0.000000000000000000, 1.000000000000000000 ) ) ;
#60 = CALENDAR_DATE ( 2020, 22, 12 ) ;
#61 = LOCAL_TIME ( 17, 14, 5.000000000000000000, #83 ) ;
#62 = CALENDAR_DATE ( 2020, 22, 12 ) ;
#63 = DIRECTION ( 'NONE',  ( 0.000000000000000000, 0.000000000000000000, 1.000000000000000000 ) ) ;
#64 = DIRECTION ( 'NONE',  ( 0.000000000000000000, 0.000000000000000000, 1.000000000000000000 ) ) ;
#65 = VERTEX_POINT ( 'NONE', #156 ) ;
#66 = DIRECTION ( 'NONE',  ( -1.000000000000000000, -0.000000000000000000, -0.000000000000000000 ) ) ;
#67 = VERTEX_POINT ( 'NONE', #129 ) ;
#68 = PRODUCT_RELATED_PRODUCT_CATEGORY ( 'detail', '', ( #16 ) ) ;
#69 = PLANE ( 'NONE',  #139 ) ;
#70 = DIRECTION ( 'NONE',  ( 0.000000000000000000, 0.000000000000000000, 1.000000000000000000 ) ) ;
#71 = ORIENTED_EDGE ( 'NONE', *, *, #332, .F. ) ;
#72 = EDGE_CURVE ( 'NONE', #268, #65, #25, .T. ) ;
#73 =( NAMED_UNIT ( * ) SI_UNIT ( $, .STERADIAN. ) SOLID_ANGLE_UNIT ( ) );
#74 = ORIENTED_EDGE ( 'NONE', *, *, #264, .T. ) ;
#75 = CC_DESIGN_PERSON_AND_ORGANIZATION_ASSIGNMENT ( #182, #186, ( #255 ) ) ;
#76 = VERTEX_POINT ( 'NONE', #45 ) ;
#77 = CIRCLE ( 'NONE', #44, 6.349999999999999645 ) ;
#78 = VERTEX_POINT ( 'NONE', #223 ) ;
#79 = ADVANCED_FACE ( 'NONE', ( #303 ), #137, .T. ) ;
#80 = ORIENTED_EDGE ( 'NONE', *, *, #90, .F. ) ;
#81 = FACE_OUTER_BOUND ( 'NONE', #248, .T. ) ;
#82 = EDGE_CURVE ( 'NONE', #240, #169, #242, .T. ) ;
#83 = COORDINATED_UNIVERSAL_TIME_OFFSET ( 8, 0, .AHEAD. ) ;
#84 = DIRECTION ( 'NONE',  ( 0.000000000000000000, 0.000000000000000000, -1.000000000000000000 ) ) ;
#85 = PERSON_AND_ORGANIZATION ( #149, #101 ) ;
#86 = LOCAL_TIME ( 17, 14, 5.000000000000000000, #334 ) ;
#87 = FACE_OUTER_BOUND ( 'NONE', #296, .T. ) ;
#88 = CALENDAR_DATE ( 2020, 22, 12 ) ;
#89 = DATE_TIME_ROLE ( 'creation_date' ) ;
#90 = EDGE_CURVE ( 'NONE', #273, #67, #202, .T. ) ;
#91 = CARTESIAN_POINT ( 'NONE',  ( -1.500000000000000444, 6.349999999999999645, 0.000000000000000000 ) ) ;
#92 = VERTEX_POINT ( 'NONE', #232 ) ;
#93 = AXIS2_PLACEMENT_3D ( 'NONE', #152, #103, #305 ) ;
#94 = CARTESIAN_POINT ( 'NONE',  ( -1.614212418857619014, 7.776507174585692163E-16, -6.349999999999999645 ) ) ;
#95 = ORIENTED_EDGE ( 'NONE', *, *, #109, .T. ) ;
#96 = ORIENTED_EDGE ( 'NONE', *, *, #109, .F. ) ;
#97 = DIRECTION ( 'NONE',  ( -1.000000000000000000, -0.000000000000000000, -0.000000000000000000 ) ) ;
#98 = ORIENTED_EDGE ( 'NONE', *, *, #249, .T. ) ;
#99 = CC_DESIGN_DATE_AND_TIME_ASSIGNMENT ( #315, #159, ( #157 ) ) ;
#100 = APPROVAL ( #233, 'UNSPECIFIED' ) ;
#101 = ORGANIZATION ( 'UNSPECIFIED', 'UNSPECIFIED', '' ) ;
#102 = CARTESIAN_POINT ( 'NONE',  ( -1.614212418857619014, 0.000000000000000000, 6.349999999999999645 ) ) ;
#103 = DIRECTION ( 'NONE',  ( -1.000000000000000000, -0.000000000000000000, -0.000000000000000000 ) ) ;
#104 = CARTESIAN_POINT ( 'NONE',  ( -1.614212418857619014, 0.000000000000000000, 12.69999999999999929 ) ) ;
#105 = AXIS2_PLACEMENT_3D ( 'NONE', #211, #335, #64 ) ;
#106 = CIRCLE ( 'NONE', #210, 12.69999999999999929 ) ;
#107 = DIRECTION ( 'NONE',  ( 0.000000000000000000, 0.000000000000000000, 1.000000000000000000 ) ) ;
#108 = DATE_AND_TIME ( #35, #86 ) ;
#109 = EDGE_CURVE ( 'NONE', #169, #240, #114, .T. ) ;
#110 = DIRECTION ( 'NONE',  ( -1.000000000000000000, -0.000000000000000000, -0.000000000000000000 ) ) ;
#111 = DATE_AND_TIME ( #33, #151 ) ;
#112 = CARTESIAN_POINT ( 'NONE',  ( -1.614212418857619014, 0.000000000000000000, 0.000000000000000000 ) ) ;
#113 = PERSON_AND_ORGANIZATION ( #149, #101 ) ;
#114 = CIRCLE ( 'NONE', #300, 6.349999999999999645 ) ;
#115 = COORDINATED_UNIVERSAL_TIME_OFFSET ( 8, 0, .AHEAD. ) ;
#116 = ADVANCED_FACE ( 'NONE', ( #234, #4 ), #181, .F. ) ;
#117 = DIRECTION ( 'NONE',  ( 0.000000000000000000, 0.000000000000000000, -1.000000000000000000 ) ) ;
#118 = EDGE_LOOP ( 'NONE', ( #43, #304, #324, #12 ) ) ;
#119 = VERTEX_POINT ( 'NONE', #254 ) ;
#120 = ORIENTED_EDGE ( 'NONE', *, *, #228, .F. ) ;
#121 = LINE ( 'NONE', #267, #194 ) ;
#122 = ORIENTED_EDGE ( 'NONE', *, *, #225, .F. ) ;
#123 = AXIS2_PLACEMENT_3D ( 'NONE', #320, #213, #217 ) ;
#124 = CC_DESIGN_APPROVAL ( #229, ( #157 ) ) ;
#125 = DIRECTION ( 'NONE',  ( -1.000000000000000000, -0.000000000000000000, -0.000000000000000000 ) ) ;
#126 = ADVANCED_FACE ( 'NONE', ( #132 ), #22, .F. ) ;
#127 = DIRECTION ( 'NONE',  ( -1.000000000000000000, 0.000000000000000000, -0.000000000000000000 ) ) ;
#128 = AXIS2_PLACEMENT_3D ( 'NONE', #1, #292, #63 ) ;
#129 = CARTESIAN_POINT ( 'NONE',  ( 3.000000000000000000, 1.555301434917138433E-15, -12.69999999999999929 ) ) ;
#130 = LINE ( 'NONE', #104, #226 ) ;
#131 = EDGE_CURVE ( 'NONE', #273, #188, #130, .T. ) ;
#132 = FACE_OUTER_BOUND ( 'NONE', #220, .T. ) ;
#133 = DIRECTION ( 'NONE',  ( 1.000000000000000000, 0.000000000000000000, 0.000000000000000000 ) ) ;
#134 = CARTESIAN_POINT ( 'NONE',  ( -3.000000000000000000, 0.000000000000000000, 12.69999999999999929 ) ) ;
#135 = APPROVAL_DATE_TIME ( #108, #289 ) ;
#136 = MANIFOLD_SOLID_BREP ( 'Ðý×', #285 ) ;
#137 = CYLINDRICAL_SURFACE ( 'NONE', #8, 12.69999999999999929 ) ;
#138 = APPROVAL_ROLE ( '' ) ;
#139 = AXIS2_PLACEMENT_3D ( 'NONE', #91, #38, #117 ) ;
#140 = APPLICATION_PROTOCOL_DEFINITION ( 'international standard', 'config_control_design', 1994, #328 ) ;
#141 = CARTESIAN_POINT ( 'NONE',  ( -2.999999999999999556, 0.000000000000000000, 0.000000000000000000 ) ) ;
#142 = ORIENTED_EDGE ( 'NONE', *, *, #332, .T. ) ;
#143 = ORIENTED_EDGE ( 'NONE', *, *, #6, .F. ) ;
#144 = AXIS2_PLACEMENT_3D ( 'NONE', #154, #177, #330 ) ;
#145 = APPROVAL_PERSON_ORGANIZATION ( #113, #229, #311 ) ;
#146 = DIRECTION ( 'NONE',  ( 0.000000000000000000, 0.000000000000000000, 1.000000000000000000 ) ) ;
#147 = EDGE_LOOP ( 'NONE', ( #199, #18 ) ) ;
#148 = ORIENTED_EDGE ( 'NONE', *, *, #131, .T. ) ;
#149 = PERSON ( 'UNSPECIFIED', 'UNSPECIFIED', 'UNSPECIFIED', ('UNSPECIFIED'), ('UNSPECIFIED'), ('UNSPECIFIED') ) ;
#150 = ADVANCED_BREP_SHAPE_REPRESENTATION ( 'Q-OZHWP-R2-12.7-405-M', ( #136, #301 ), #247 ) ;
#151 = LOCAL_TIME ( 17, 14, 5.000000000000000000, #261 ) ;
#152 = CARTESIAN_POINT ( 'NONE',  ( 1.500000000000000888, 0.000000000000000000, 0.000000000000000000 ) ) ;
#153 = PLANE ( 'NONE',  #215 ) ;
#154 = CARTESIAN_POINT ( 'NONE',  ( 3.000000000000000000, 12.69999999999999929, 0.000000000000000000 ) ) ;
#155 = AXIS2_PLACEMENT_3D ( 'NONE', #312, #287, #107 ) ;
#156 = CARTESIAN_POINT ( 'NONE',  ( 1.500000000000000888, 7.776507174585692163E-16, -6.349999999999999645 ) ) ;
#157 = SECURITY_CLASSIFICATION ( '', '', #293 ) ;
#158 = DIRECTION ( 'NONE',  ( 0.000000000000000000, 0.000000000000000000, 1.000000000000000000 ) ) ;
#159 = DATE_TIME_ROLE ( 'classification_date' ) ;
#160 = ADVANCED_FACE ( 'NONE', ( #87 ), #28, .F. ) ;
#161 = CARTESIAN_POINT ( 'NONE',  ( 3.000000000000000000, 0.000000000000000000, 0.000000000000000000 ) ) ;
#162 = AXIS2_PLACEMENT_3D ( 'NONE', #26, #56, #84 ) ;
#163 = DATE_AND_TIME ( #60, #231 ) ;
#164 = CC_DESIGN_DATE_AND_TIME_ASSIGNMENT ( #165, #89, ( #259 ) ) ;
#165 = DATE_AND_TIME ( #62, #46 ) ;
#166 = DIRECTION ( 'NONE',  ( 0.000000000000000000, 0.000000000000000000, -1.000000000000000000 ) ) ;
#167 = CIRCLE ( 'NONE', #14, 6.349999999999999645 ) ;
#168 = DESIGN_CONTEXT ( 'detailed design', #328, 'design' ) ;
#169 = VERTEX_POINT ( 'NONE', #184 ) ;
#170 = ADVANCED_FACE ( 'NONE', ( #290 ), #333, .T. ) ;
#171 = AXIS2_PLACEMENT_3D ( 'NONE', #274, #125, #278 ) ;
#172 = ORIENTED_EDGE ( 'NONE', *, *, #322, .T. ) ;
#173 = ORIENTED_EDGE ( 'NONE', *, *, #280, .T. ) ;
#174 = CIRCLE ( 'NONE', #295, 6.349999999999999645 ) ;
#175 = DIRECTION ( 'NONE',  ( 0.000000000000000000, 0.000000000000000000, -1.000000000000000000 ) ) ;
#176 = CARTESIAN_POINT ( 'NONE',  ( 1.500000000000000444, 6.349999999999999645, 0.000000000000000000 ) ) ;
#177 = DIRECTION ( 'NONE',  ( -1.000000000000000000, 0.000000000000000000, -0.000000000000000000 ) ) ;
#178 = CIRCLE ( 'NONE', #123, 12.69999999999999929 ) ;
#179 = ORIENTED_EDGE ( 'NONE', *, *, #17, .T. ) ;
#180 = DIRECTION ( 'NONE',  ( -1.000000000000000000, -0.000000000000000000, -0.000000000000000000 ) ) ;
#181 = PLANE ( 'NONE',  #162 ) ;
#182 = PERSON_AND_ORGANIZATION ( #149, #101 ) ;
#183 = FACE_OUTER_BOUND ( 'NONE', #245, .T. ) ;
#184 = CARTESIAN_POINT ( 'NONE',  ( 3.000000000000000888, 0.000000000000000000, 6.349999999999999645 ) ) ;
#185 = DIRECTION ( 'NONE',  ( -1.000000000000000000, -0.000000000000000000, -0.000000000000000000 ) ) ;
#186 = PERSON_AND_ORGANIZATION_ROLE ( 'design_supplier' ) ;
#187 = DIRECTION ( 'NONE',  ( 0.000000000000000000, 0.000000000000000000, 1.000000000000000000 ) ) ;
#188 = VERTEX_POINT ( 'NONE', #134 ) ;
#189 = DIRECTION ( 'NONE',  ( -1.000000000000000000, -0.000000000000000000, -0.000000000000000000 ) ) ;
#190 = ORIENTED_EDGE ( 'NONE', *, *, #322, .F. ) ;
#191 = ORIENTED_EDGE ( 'NONE', *, *, #201, .F. ) ;
#192 = ADVANCED_FACE ( 'NONE', ( #183 ), #205, .F. ) ;
#193 = CIRCLE ( 'NONE', #252, 6.349999999999999645 ) ;
#194 = VECTOR ( 'NONE', #97, 1000.000000000000000 ) ;
#195 = DIRECTION ( 'NONE',  ( -1.000000000000000000, -0.000000000000000000, -0.000000000000000000 ) ) ;
#196 = EDGE_LOOP ( 'NONE', ( #302, #329, #148, #71 ) ) ;
#197 = LINE ( 'NONE', #276, #230 ) ;
#198 = CARTESIAN_POINT ( 'NONE',  ( -2.999999999999999556, 0.000000000000000000, 0.000000000000000000 ) ) ;
#199 = ORIENTED_EDGE ( 'NONE', *, *, #291, .F. ) ;
#200 = CYLINDRICAL_SURFACE ( 'NONE', #171, 6.349999999999999645 ) ;
#201 = EDGE_CURVE ( 'NONE', #9, #78, #3, .T. ) ;
#202 = CIRCLE ( 'NONE', #53, 12.69999999999999929 ) ;
#203 = DIRECTION ( 'NONE',  ( -1.000000000000000000, -0.000000000000000000, -0.000000000000000000 ) ) ;
#204 = PERSON_AND_ORGANIZATION_ROLE ( 'creator' ) ;
#205 = CYLINDRICAL_SURFACE ( 'NONE', #128, 6.349999999999999645 ) ;
#206 = APPROVAL_STATUS ( 'not_yet_approved' ) ;
#207 = DIRECTION ( 'NONE',  ( 0.000000000000000000, 0.000000000000000000, 1.000000000000000000 ) ) ;
#208 = DIRECTION ( 'NONE',  ( -1.000000000000000000, -0.000000000000000000, -0.000000000000000000 ) ) ;
#209 = SHAPE_DEFINITION_REPRESENTATION ( #47, #150 ) ;
#210 = AXIS2_PLACEMENT_3D ( 'NONE', #244, #294, #146 ) ;
#211 = CARTESIAN_POINT ( 'NONE',  ( -1.614212418857619014, 0.000000000000000000, 0.000000000000000000 ) ) ;
#212 = DIRECTION ( 'NONE',  ( -1.000000000000000000, -0.000000000000000000, -0.000000000000000000 ) ) ;
#213 = DIRECTION ( 'NONE',  ( -1.000000000000000000, -0.000000000000000000, -0.000000000000000000 ) ) ;
#214 = EDGE_LOOP ( 'NONE', ( #218, #36 ) ) ;
#215 = AXIS2_PLACEMENT_3D ( 'NONE', #176, #127, #277 ) ;
#216 = CC_DESIGN_APPROVAL ( #289, ( #255 ) ) ;
#217 = DIRECTION ( 'NONE',  ( 0.000000000000000000, 0.000000000000000000, 1.000000000000000000 ) ) ;
#218 = ORIENTED_EDGE ( 'NONE', *, *, #72, .F. ) ;
#219 = CARTESIAN_POINT ( 'NONE',  ( 3.000000000000000000, 0.000000000000000000, 12.69999999999999929 ) ) ;
#220 = EDGE_LOOP ( 'NONE', ( #190, #298, #42, #323 ) ) ;
#221 = CARTESIAN_POINT ( 'NONE',  ( -3.000000000000000000, 0.000000000000000000, 0.000000000000000000 ) ) ;
#222 = ADVANCED_FACE ( 'NONE', ( #308 ), #69, .F. ) ;
#223 = CARTESIAN_POINT ( 'NONE',  ( -1.500000000000000444, 0.000000000000000000, 6.349999999999999645 ) ) ;
#224 = DIRECTION ( 'NONE',  ( 0.000000000000000000, 0.000000000000000000, 1.000000000000000000 ) ) ;
#225 = EDGE_CURVE ( 'NONE', #169, #268, #318, .T. ) ;
#226 = VECTOR ( 'NONE', #110, 1000.000000000000000 ) ;
#227 = FACE_OUTER_BOUND ( 'NONE', #243, .T. ) ;
#228 = EDGE_CURVE ( 'NONE', #67, #273, #178, .T. ) ;
#229 = APPROVAL ( #206, 'UNSPECIFIED' ) ;
#230 = VECTOR ( 'NONE', #48, 1000.000000000000000 ) ;
#231 = LOCAL_TIME ( 17, 14, 5.000000000000000000, #29 ) ;
#232 = CARTESIAN_POINT ( 'NONE',  ( -2.999999999999999556, 7.776507174585692163E-16, -6.349999999999999645 ) ) ;
#233 = APPROVAL_STATUS ( 'not_yet_approved' ) ;
#234 = FACE_BOUND ( 'NONE', #147, .T. ) ;
#235 = PERSON_AND_ORGANIZATION_ROLE ( 'creator' ) ;
#236 = VECTOR ( 'NONE', #250, 1000.000000000000000 ) ;
#237 = MECHANICAL_CONTEXT ( 'NONE', #30, 'mechanical' ) ;
#238 = LINE ( 'NONE', #94, #306 ) ;
#239 = APPROVAL_ROLE ( '' ) ;
#240 = VERTEX_POINT ( 'NONE', #272 ) ;
#241 = ORIENTED_EDGE ( 'NONE', *, *, #72, .T. ) ;
#242 = CIRCLE ( 'NONE', #263, 6.349999999999999645 ) ;
#243 = EDGE_LOOP ( 'NONE', ( #11, #98, #74, #122 ) ) ;
#244 = CARTESIAN_POINT ( 'NONE',  ( -3.000000000000000000, 0.000000000000000000, 0.000000000000000000 ) ) ;
#245 = EDGE_LOOP ( 'NONE', ( #262, #172, #179, #37 ) ) ;
#246 = ORIENTED_EDGE ( 'NONE', *, *, #225, .T. ) ;
#247 =( GEOMETRIC_REPRESENTATION_CONTEXT ( 3 ) GLOBAL_UNCERTAINTY_ASSIGNED_CONTEXT ( ( #269 ) ) GLOBAL_UNIT_ASSIGNED_CONTEXT ( ( #10, #325, #73 ) ) REPRESENTATION_CONTEXT ( 'NONE', 'WORKASPACE' ) );
#248 = EDGE_LOOP ( 'NONE', ( #80, #120 ) ) ;
#249 = EDGE_CURVE ( 'NONE', #240, #65, #238, .T. ) ;
#250 = DIRECTION ( 'NONE',  ( -1.000000000000000000, -0.000000000000000000, -0.000000000000000000 ) ) ;
#251 = LINE ( 'NONE', #102, #236 ) ;
#252 = AXIS2_PLACEMENT_3D ( 'NONE', #198, #52, #224 ) ;
#253 = DIRECTION ( 'NONE',  ( 1.000000000000000000, 0.000000000000000000, 0.000000000000000000 ) ) ;
#254 = CARTESIAN_POINT ( 'NONE',  ( -3.000000000000000000, 1.555301434917138433E-15, -12.69999999999999929 ) ) ;
#255 = PRODUCT_DEFINITION_FORMATION_WITH_SPECIFIED_SOURCE ( 'ANY', '', #16, .NOT_KNOWN. ) ;
#256 = PERSON_AND_ORGANIZATION ( #149, #101 ) ;
#257 = DIRECTION ( 'NONE',  ( 0.000000000000000000, 0.000000000000000000, 1.000000000000000000 ) ) ;
#258 = PERSON_AND_ORGANIZATION ( #149, #101 ) ;
#259 = PRODUCT_DEFINITION ( 'UNKNOWN', '', #255, #168 ) ;
#260 = CARTESIAN_POINT ( 'NONE',  ( -1.500000000000000444, 0.000000000000000000, 0.000000000000000000 ) ) ;
#261 = COORDINATED_UNIVERSAL_TIME_OFFSET ( 8, 0, .AHEAD. ) ;
#262 = ORIENTED_EDGE ( 'NONE', *, *, #6, .T. ) ;
#263 = AXIS2_PLACEMENT_3D ( 'NONE', #314, #203, #158 ) ;
#264 = EDGE_CURVE ( 'NONE', #65, #268, #167, .T. ) ;
#265 = APPROVAL_PERSON_ORGANIZATION ( #85, #289, #239 ) ;
#266 = PERSON_AND_ORGANIZATION ( #149, #101 ) ;
#267 = CARTESIAN_POINT ( 'NONE',  ( -1.614212418857619014, 7.776507174585692163E-16, -6.349999999999999645 ) ) ;
#268 = VERTEX_POINT ( 'NONE', #41 ) ;
#269 = UNCERTAINTY_MEASURE_WITH_UNIT (LENGTH_MEASURE( 1.000000000000000082E-05 ), #10, 'distance_accuracy_value', 'NONE');
#270 = AXIS2_PLACEMENT_3D ( 'NONE', #112, #185, #207 ) ;
#271 = CC_DESIGN_SECURITY_CLASSIFICATION ( #157, ( #255 ) ) ;
#272 = CARTESIAN_POINT ( 'NONE',  ( 3.000000000000000888, 7.776507174585692163E-16, -6.349999999999999645 ) ) ;
#273 = VERTEX_POINT ( 'NONE', #219 ) ;
#274 = CARTESIAN_POINT ( 'NONE',  ( -1.614212418857619014, 0.000000000000000000, 0.000000000000000000 ) ) ;
#275 = CC_DESIGN_PERSON_AND_ORGANIZATION_ASSIGNMENT ( #266, #284, ( #16 ) ) ;
#276 = CARTESIAN_POINT ( 'NONE',  ( -1.614212418857619014, 1.555301434917138433E-15, -12.69999999999999929 ) ) ;
#277 = DIRECTION ( 'NONE',  ( -0.000000000000000000, 0.000000000000000000, 1.000000000000000000 ) ) ;
#278 = DIRECTION ( 'NONE',  ( 0.000000000000000000, 0.000000000000000000, 1.000000000000000000 ) ) ;
#279 = AXIS2_PLACEMENT_3D ( 'NONE', #260, #32, #166 ) ;
#280 = EDGE_CURVE ( 'NONE', #188, #119, #106, .T. ) ;
#281 = EDGE_LOOP ( 'NONE', ( #143, #191 ) ) ;
#282 = DIRECTION ( 'NONE',  ( 0.000000000000000000, 0.000000000000000000, 1.000000000000000000 ) ) ;
#283 = CARTESIAN_POINT ( 'NONE',  ( -1.614212418857619014, 0.000000000000000000, 0.000000000000000000 ) ) ;
#284 = PERSON_AND_ORGANIZATION_ROLE ( 'design_owner' ) ;
#285 = CLOSED_SHELL ( 'NONE', ( #79, #192, #54, #21, #160, #126, #116, #170, #31, #222 ) ) ;
#286 = CC_DESIGN_APPROVAL ( #100, ( #259 ) ) ;
#287 = DIRECTION ( 'NONE',  ( -1.000000000000000000, -0.000000000000000000, -0.000000000000000000 ) ) ;
#288 = APPROVAL_DATE_TIME ( #163, #229 ) ;
#289 = APPROVAL ( #27, 'UNSPECIFIED' ) ;
#290 = FACE_OUTER_BOUND ( 'NONE', #196, .T. ) ;
#291 = EDGE_CURVE ( 'NONE', #76, #92, #174, .T. ) ;
#292 = DIRECTION ( 'NONE',  ( -1.000000000000000000, -0.000000000000000000, -0.000000000000000000 ) ) ;
#293 = SECURITY_CLASSIFICATION_LEVEL ( 'unclassified' ) ;
#294 = DIRECTION ( 'NONE',  ( -1.000000000000000000, -0.000000000000000000, -0.000000000000000000 ) ) ;
#295 = AXIS2_PLACEMENT_3D ( 'NONE', #141, #66, #7 ) ;
#296 = EDGE_LOOP ( 'NONE', ( #319, #96, #246, #241 ) ) ;
#297 = CARTESIAN_POINT ( 'NONE',  ( 1.500000000000000888, 0.000000000000000000, 0.000000000000000000 ) ) ;
#298 = ORIENTED_EDGE ( 'NONE', *, *, #201, .T. ) ;
#299 = DIRECTION ( 'NONE',  ( -1.000000000000000000, -0.000000000000000000, -0.000000000000000000 ) ) ;
#300 = AXIS2_PLACEMENT_3D ( 'NONE', #310, #316, #282 ) ;
#301 = AXIS2_PLACEMENT_3D ( 'NONE', #50, #23, #133 ) ;
#302 = ORIENTED_EDGE ( 'NONE', *, *, #13, .F. ) ;
#303 = FACE_OUTER_BOUND ( 'NONE', #118, .T. ) ;
#304 = ORIENTED_EDGE ( 'NONE', *, *, #13, .T. ) ;
#305 = DIRECTION ( 'NONE',  ( 0.000000000000000000, 0.000000000000000000, 1.000000000000000000 ) ) ;
#306 = VECTOR ( 'NONE', #189, 1000.000000000000000 ) ;
#307 = CIRCLE ( 'NONE', #39, 12.69999999999999929 ) ;
#308 = FACE_OUTER_BOUND ( 'NONE', #281, .T. ) ;
#309 = PERSON_AND_ORGANIZATION_ROLE ( 'classification_officer' ) ;
#310 = CARTESIAN_POINT ( 'NONE',  ( 3.000000000000000888, 0.000000000000000000, 0.000000000000000000 ) ) ;
#311 = APPROVAL_ROLE ( '' ) ;
#312 = CARTESIAN_POINT ( 'NONE',  ( -1.614212418857619014, 0.000000000000000000, 0.000000000000000000 ) ) ;
#313 = CC_DESIGN_PERSON_AND_ORGANIZATION_ASSIGNMENT ( #258, #235, ( #255 ) ) ;
#314 = CARTESIAN_POINT ( 'NONE',  ( 3.000000000000000888, 0.000000000000000000, 0.000000000000000000 ) ) ;
#315 = DATE_AND_TIME ( #88, #61 ) ;
#316 = DIRECTION ( 'NONE',  ( -1.000000000000000000, -0.000000000000000000, -0.000000000000000000 ) ) ;
#317 = PERSON_AND_ORGANIZATION ( #149, #101 ) ;
#318 = LINE ( 'NONE', #34, #326 ) ;
#319 = ORIENTED_EDGE ( 'NONE', *, *, #249, .F. ) ;
#320 = CARTESIAN_POINT ( 'NONE',  ( 3.000000000000000000, 0.000000000000000000, 0.000000000000000000 ) ) ;
#321 = EDGE_LOOP ( 'NONE', ( #173, #142 ) ) ;
#322 = EDGE_CURVE ( 'NONE', #9, #92, #121, .T. ) ;
#323 = ORIENTED_EDGE ( 'NONE', *, *, #291, .T. ) ;
#324 = ORIENTED_EDGE ( 'NONE', *, *, #280, .F. ) ;
#325 =( NAMED_UNIT ( * ) PLANE_ANGLE_UNIT ( ) SI_UNIT ( $, .RADIAN. ) );
#326 = VECTOR ( 'NONE', #212, 1000.000000000000000 ) ;
#327 = ORIENTED_EDGE ( 'NONE', *, *, #82, .T. ) ;
#328 = APPLICATION_CONTEXT ( 'configuration controlled 3d designs of mechanical parts and assemblies' ) ;
#329 = ORIENTED_EDGE ( 'NONE', *, *, #228, .T. ) ;
#330 = DIRECTION ( 'NONE',  ( -0.000000000000000000, 0.000000000000000000, 1.000000000000000000 ) ) ;
#331 = FACE_OUTER_BOUND ( 'NONE', #214, .T. ) ;
#332 = EDGE_CURVE ( 'NONE', #119, #188, #307, .T. ) ;
#333 = CYLINDRICAL_SURFACE ( 'NONE', #155, 12.69999999999999929 ) ;
#334 = COORDINATED_UNIVERSAL_TIME_OFFSET ( 8, 0, .AHEAD. ) ;
#335 = DIRECTION ( 'NONE',  ( -1.000000000000000000, -0.000000000000000000, -0.000000000000000000 ) ) ;
ENDSEC;
END-ISO-10303-21;
